top

The Agony and the Xtc tab

 
Post new topic   Reply to topic    myvitriol.net Forum Index -> Kit and Tab
Author Message
Entangled
Finelines


Joined: 06 Sep 2006
Posts: 15

PostPosted: Wed Aug 01, 2007 11:45 am    Post subject: The Agony and the Xtc tab Reply with quote

Here is the intro, tuning is half a step down



D#/------------12-------------------------12-------------
A#/---------10---10-------------------10----10---------
F#/------11----------11---11-------11----------11---11
C#/--11----------------11-------11----------------11---
G#/-------------------------------------------------------
D#/-------------------------------------------------------

D#/------------9-------9----10--9----9-------9----------
A#/---------10--10------10-------10---10---------------
F#/------11---------11---------------------11------------
C#/--12---------------------------------------------------
G#/-----------------------------------------------0-------
D#/--------------------------------------------------------

D#/------9--10--9----------------9--10-----------------
A#/----7-----------7----7------7--------7----7----------
F#/--------------------7-----7--------------7------------
C#/-------------------------------------------------------
G#/-------------------------------------------------------
D#/--7---------------------------------------------------

D#/------------9------------------------9---------------
A#/---------10--10-------------------9---9------------
F#/------11---------11----11-----10-------10---------
C#/--12----------------12-----11--------------11-----
G#/-----------------------------------------------------
D#/-----------------------------------------------------
Back to top
View user's profile Send private message
Entangled
Finelines


Joined: 06 Sep 2006
Posts: 15

PostPosted: Wed Aug 01, 2007 12:01 pm    Post subject: Reply with quote

After the intro it goes something like this, i know its not correct but this sounds quite close:
D#/-----------------------------------------------
A#/-----------------------------------------------
F#/------------------9--9---------------2---------
C#/--4-4-4-4-4-4--9--9--4-4-4-4-4--2---------- (x2)
G#/--4-4-4-4-4-4--7--7--4-4-4-4-4--------------
D#/--2-2-2-2-2-2---------2-2-2-2-2-------------

The chords in the next bit are F#m, D, Bm, D, C


Verse is F#m, G, D, A, C#
Chorus is F#m, D, Bm, D, C
Back to top
View user's profile Send private message
Lynch3y
Underthelines


Joined: 18 Sep 2005
Posts: 772
Location: UK

PostPosted: Wed Aug 01, 2007 1:42 pm    Post subject: Reply with quote

thanks dude Very Happy
Back to top
View user's profile Send private message Send e-mail Visit poster's website MSN Messenger
Entangled
Finelines


Joined: 06 Sep 2006
Posts: 15

PostPosted: Wed Aug 01, 2007 1:58 pm    Post subject: Reply with quote

correction:

all C chords are in fact C#
Back to top
View user's profile Send private message
Entangled
Finelines


Joined: 06 Sep 2006
Posts: 15

PostPosted: Thu Aug 02, 2007 1:22 pm    Post subject: Reply with quote

Here are the chords for the verse as close as I can work out, If anyone has a better version please post it.


F#, G, D, D/A, C#

D#/-2-----X---- 2------X------X----------
C#/-2-----2-----3------2------6----------
F#/-2------0-----2------2------6----------
C#/-4-----0-----X------0------6----------
G#/-4-----2-----X------X------4----------
D#/-2-----3-----X------X------X---------
Back to top
View user's profile Send private message
Moodswings
Betweenthelines


Joined: 01 May 2005
Posts: 115
Location: Stgo,Chile

PostPosted: Thu Aug 02, 2007 4:41 pm    Post subject: Reply with quote

sweeeeeeeet
thanks men Smile
Very Happy
Back to top
View user's profile Send private message Send e-mail MSN Messenger
Display posts from previous:    View previous topic : View next topic  
Post new topic   Reply to topic    myvitriol.net Forum Index -> Kit and Tab All times are GMT + 1 Hour
Page 1 of 1
Jump to:  
You cannot post new topics in this forum
You cannot reply to topics in this forum
You cannot edit your posts in this forum
You cannot delete your posts in this forum
You cannot vote in polls in this forum
You cannot attach files in this forum
You can download files in this forum