top

My Vitriol Tabs
Goto page Previous  1, 2, 3, 4  Next
 
Post new topic   Reply to topic    myvitriol.net Forum Index -> Kit and Tab
Author Message
hystericallyuseless
Underthelines


Joined: 19 Jun 2005
Posts: 907
Location: Planet Earth

PostPosted: Wed Nov 30, 2005 8:31 pm    Post subject: Reply with quote

cementedshoes wrote:
gentle art of choking? please please?


Im sure there is a good tab for this floating about the main tab sites Smile

_________________
We hope that your rules and wisdom choke you.
Back to top
View user's profile Send private message
cementedshoes
Lostthelines


Joined: 04 Apr 2005
Posts: 1167
Location: Southampton

PostPosted: Thu Dec 01, 2005 10:13 am    Post subject: Reply with quote

hystericallyuseless wrote:
cementedshoes wrote:
gentle art of choking? please please?


Im sure there is a good tab for this floating about the main tab sites Smile


yeah, but i cant be bothered to look elsewhere these days lol

_________________
Back to top
View user's profile Send private message Send e-mail Visit poster's website
hystericallyuseless
Underthelines


Joined: 19 Jun 2005
Posts: 907
Location: Planet Earth

PostPosted: Thu Dec 01, 2005 5:58 pm    Post subject: Reply with quote

cementedshoes wrote:
hystericallyuseless wrote:
cementedshoes wrote:
gentle art of choking? please please?


Im sure there is a good tab for this floating about the main tab sites Smile


yeah, but i cant be bothered to look elsewhere these days lol


i see Smile

_________________
We hope that your rules and wisdom choke you.
Back to top
View user's profile Send private message
talking to the walls
Overthelines


Joined: 08 Jul 2005
Posts: 204
Location: Coventry, UK

PostPosted: Sun Dec 04, 2005 2:22 pm    Post subject: Reply with quote

Thanks for all the cool tabs! This is the solo in Grounded, which i think got left out from the tab above:

Solo
E--------- ------ ------ -------4-- - -- --- ---4--- -- --- --4-----------------
B-1--0--1--0--1--0-2b3r2-------5--2b3r2----5-2b3r2----5-5b6r5--3--2---
G---------------------------------------------------------------------
D---------------------------------------------------------------------
A---------------------------------------------------------------------
E---------------------------------------------------------------------

Tuning: Standard (EADGBE). Capo on 3rd Fret.
Back to top
View user's profile Send private message Visit poster's website
doddy
Underthelines


Joined: 25 Mar 2005
Posts: 300
Location: Mansfield

PostPosted: Sun Dec 04, 2005 7:13 pm    Post subject: Reply with quote

Ok Gentle art of choking as promised. Bit scrappy but i cant be arsed to do it all.

Standard E tuning, capo 2nd fret

Intro lead guitar

E---------------------------------------------------------------------
B--------12----10---9-----------------------------------------------
G--------------------------------------------------------------------
D---------------------------------------------------------------------
A---------------------------------------------------------------------
E---------------------------------------------------------------------

Verse chords
E---------------------------------------------------------------------
B-----0---------0---0----------------------------------------------------
G-----8----6---4---2------------------------------------------------------
D-----6----6---6---4------------------------------------------------------
A-----7----0---6---4------------------------------------------------------
E---------------------------------------------------------------------

Riff

E---------------------------------------------------------------------
B---------------------------------------------------------------------
G---------8-----------8------------------------------------------------
D---------------------------------------------------------------------
A-----7---6-----7----6------------------------------------------------
E-----0---------0-------------------------------------------------------

Chorus
E---------------------------------------------------------------------
B-----0-----0-----0------0-----------------------------------------
G-----2-----2-----2-----2-------------8----6---------------------------
D-----2-----4-----2-----4-------------9----7---------------------------
A-----0-----4-----0-----4-------------0----0---------------------------
E---------------------------------------------------------------------

Thats all you really need to know. Smile
Back to top
View user's profile Send private message Visit poster's website MSN Messenger
hystericallyuseless
Underthelines


Joined: 19 Jun 2005
Posts: 907
Location: Planet Earth

PostPosted: Wed Dec 07, 2005 9:09 pm    Post subject: Reply with quote

doddy wrote:
Off to see Amusement Parks on Fire tonight woo


Dude, is this band any good, cause Im thinking of buying there album based on a few reviews off amazon ?????????? Very Happy

_________________
We hope that your rules and wisdom choke you.
Back to top
View user's profile Send private message
doddy
Underthelines


Joined: 25 Mar 2005
Posts: 300
Location: Mansfield

PostPosted: Thu Dec 08, 2005 7:25 am    Post subject: Reply with quote

Just download some songs, the album has a few dogdy tracks. Get the new Ep its quality. Called Blackout.
Back to top
View user's profile Send private message Visit poster's website MSN Messenger
hystericallyuseless
Underthelines


Joined: 19 Jun 2005
Posts: 907
Location: Planet Earth

PostPosted: Thu Dec 08, 2005 6:08 pm    Post subject: Reply with quote

doddy wrote:
Just download some songs, the album has a few dogdy tracks. Get the new Ep its quality. Called Blackout.


ok thanx Smile

_________________
We hope that your rules and wisdom choke you.
Back to top
View user's profile Send private message
Luke Rounda
Overthelines


Joined: 24 Jul 2005
Posts: 243
Location: USA

PostPosted: Sun Dec 11, 2005 5:58 am    Post subject: We've Lost Our Way Reply with quote

To view this tab correctly, copy and paste this post into a text editor with a monospaced font, such as Notepad.

-------------------------------------------------------------------------------
WE'VE LOST OUR WAY - My Vitriol
-------------------------------------------------------------------------------
Tabbed by: Luke Rounda
Email: luke@notus.com

1/4 Step Down Tuning

What is a quarter step? By definition, this is a "microtonal" guitar tuning,
containing notes that have no traditional name in a 12-tone equal temperament
system -- the "notes between the cracks."

The guitar I transcribed this on was tuned a half step down from standard to
begin with (Eb Ab Db Gb Bb Eb). To get in tune with the recording, I had to
tune UP by a quarter step, such that my tuner says I'm very sharp for an Eb
tuning, but very flat for a standard E tuning.

A good way to tune to the song is to pick out a prominent lead guitar note and
try to match it by tuning one string. Then, tune the rest of the guitar to that
string.

If you can't tune by ear, find a chromatic tuner and set A to 435Hz instead of
440Hz, then tune your guitar.


piano intro (arranged for guitar)
e|--1-----1-----6-----6-------------6-----6----------|
B|--2-----4-----6-----9--------4----6-----9----------| Rhythm guitar vamps
G|--3-----1-----6-----6----3---3----6-----6----------| Bbmin and then F#
D|--3-----3-----8-----8----4---4----8-----8----------| under this.
A|-(1)---(1)---(6)---(6)---4---2---(6)---(6)---------|
E|-------------------------2-------------------------|

You'll probably need good sustain to make it seem more piano-like; try a
compressor.

For the next bit, your guess is as good as mine. There's some sort of
pitchshifter effect on the bass guitar, playing a descending glissando.
The synth/rhythm guitar is ascending between 2-3 chords, and the lead
guitar is playing the skronky punctuation to the phrase. Getting it to
sound like the recording with one guitar should be difficult. If you have
anything to add, drop me a line.

main guitar riff (lead)
e|-----------------------------------------------------------------------|
B|----------9-9-----------9-9--------------------------------------------|
G|--------------10--10-10-----10-10-10--10-8----8-8-8--8-8---------------|
D|-8~~~-8-8----------------------------------11------------10-11-10------|
A|-----------------------------------------------------------------------|
E|-----------------------------------------------------------------------|

e|-------8-8---8-8-------------------------------------------------------|
B|-----------9-----9-9-9--9-------------------9-9------------------------|
G|--------------------------11-10-11-11-11-11----------------------------|
D|-11~~~------------------------------------------8~~~~~~~---------------|
A|-----------------------------------------------------------------------|
E|-----------------------------------------------------------------------|

At this point, lead guitar dissolves into a haze of wah pedal manipulation.
I don't own a wah at this time, but I'd imagine if you experiment and rock
the pedal up and down while playing in the same chord shape, you should
come pretty close.

Rhythm guitar again vamps Bbmin and F# out. The chorus is 4 chords --

Bbmin x13321
F# 244322
Ab 466544
D#m7 x68676

-- with some subtle variations on the last chord thrown in.

post-chorus lick
e|---------------------------------|
B|----11---9-------11----9---------|
G|--------------10----10-----------|
D|--8----8----8--------------------|
A|---------------------------------|
E|---------------------------------|
slight PM...............

verse lick
e|---------------------------------|
B|------7p6---7p6-7p6--------------|
G|--5/6-----6----------------------|
D|---(6)---(6)---------------------|
A|---------------------------------|
E|---------------------------------|

The intro piano line is reprised, then:

bridge
e|---------------------------9~~~~-8~~~~~~-9~~~~-8~~~~----9~~~//(21~~~~~)|
B|-----------------------------------------------------------------------|
G|--5~~~~~~~~~~~-6~~~~~~~~~~--------------------------6~~~---------------|
D|-----------------------------------------------------------------------|
A|-----------------------------------------------------------------------|
E|-----------------------------------------------------------------------|
^^^ tremolo picking throughout ^^^


piano outro (arranged for guitar)
e|---1-----1-----1-----1---4---1-----1-----1-----1--------2-1---2-1---2-1|
B|-----2-----2-----2-----2-------4-----4-----4-----4----------2-----2----|
G|-------3-----3-----3-------------1-----1-----1-----1--3----------------|
D|---------------------------3-------------------------------------------|
A|-1---------------------------------------------------------------------|
E|-----------------------------------------------------------------------|


| / slide up
| \ slide down
| h hammer-on
| p pull-off
| ~ vibrato/let ring
| <> harmonic
| x Mute note
| () ghost note (optional)
===============================================================================[/b]
Back to top
View user's profile Send private message
hystericallyuseless
Underthelines


Joined: 19 Jun 2005
Posts: 907
Location: Planet Earth

PostPosted: Sun Dec 11, 2005 2:36 pm    Post subject: Re: We've Lost Our Way Reply with quote

Luke Rounda wrote:


1/4 Step Down Tuning

What is a quarter step? By definition, this is a "microtonal" guitar tuning,
containing notes that have no traditional name in a 12-tone equal temperament
system -- the "notes between the cracks."

The guitar I transcribed this on was tuned a half step down from standard to
begin with (Eb Ab Db Gb Bb Eb). To get in tune with the recording, I had to
tune UP by a quarter step, such that my tuner says I'm very sharp for an Eb
tuning, but very flat for a standard E tuning.

A good way to tune to the song is to pick out a prominent lead guitar note and
try to match it by tuning one string. Then, tune the rest of the guitar to that
string.

If you can't tune by ear, find a chromatic tuner and set A to 435Hz instead of
440Hz, then tune your guitar.
[/b]


My my my, your pretty knowledged on guitar arent you. I wish I was as knowledged as you Sad

_________________
We hope that your rules and wisdom choke you.
Back to top
View user's profile Send private message
doddy
Underthelines


Joined: 25 Mar 2005
Posts: 300
Location: Mansfield

PostPosted: Sun Dec 11, 2005 10:23 pm    Post subject: Reply with quote

Ive always played We've Lost Our Way like this...

E---------------------------------------------------------------------
B--------------8-8-8----------8-8-8----------------------------------
G--2--4--5---------9-9-9-9----------9--7--7-7---------------------
D---------------------------------------------------------------------
A---------------------------------------------------------------------
E---------------------------------------------------------------------

E---------------------------------------------------------------------
B--------------12-12-12--------------12--12--12----------------------------
G--2--4--5---------------12-12-12-----------------12--12--12- 10 10--12----
D---------------------------------------------------------------------
A---------------------------------------------------------------------
E---------------------------------------------------------------------


And So Damn Easy like...

E---------------------------------------------------------------------
B--------------------------------------------------------------
G--2--2--0---2--9-9--2--2--0-2---9----4-4-4-5-0---4-4-4--5--0-
D---------------------------------------------------------------------
A---------------------------------------------------------------------
D---------------------------------------------------------------------

E--7-------7-------------------------------------------------------------
B---8---8--8-----------------------------------------------------------
G----9------9--------------------------------------------------------------
D----------------2----5-------------------------------------------------
A----------------2----5------------------------------------------------
D----------------2----5-------------------------------------------------

E---------------------------------------------------------------------
B----------------------------------------------------------------------
G--5-5-5-5-5--4-4--9-9-9--4--2-2--2-2-4-4-2-2-2-4-5-----------
D---------------------------------------------------------------------
A---------------------------------------------------------------------
E---------------------------------------------------------------------

E----------------------------------------------------------------------
B-------------------------------------------------------------------
G----------------------6---7----------------------------------------------
D----------------0----------------------------------------------------
A----------------0-----4---5-------------------------------------------
D----------------0-----------------------------------------------------

Something like that.
Back to top
View user's profile Send private message Visit poster's website MSN Messenger
Moodswings
Betweenthelines


Joined: 01 May 2005
Posts: 115
Location: Stgo,Chile

PostPosted: Mon Dec 12, 2005 5:51 am    Post subject: Reply with quote

great tabs .. thanks dudes !
if only ?? hehe Cool
Back to top
View user's profile Send private message Send e-mail MSN Messenger
Luke Rounda
Overthelines


Joined: 24 Jul 2005
Posts: 243
Location: USA

PostPosted: Mon Dec 12, 2005 8:17 am    Post subject: Reply with quote

doddy wrote:
Ive always played We've Lost Our Way like this...


I think you left a couple of notes out in there, but you could definitely play it that way. My personal style just demands that I play in the "box," staying within the same 4 frets or so. Plus, I think it really accents the high note jump in the lead line if you string skip from the D string to the E string.

Keep the tabs coming!

Oh, and hystericallyuseless, thank you, although I would say that my knowledge of the guitar is actually fairly limited. I hardly ever practice scales... but you should. Yeah.
Back to top
View user's profile Send private message
doddy
Underthelines


Joined: 25 Mar 2005
Posts: 300
Location: Mansfield

PostPosted: Mon Dec 12, 2005 7:00 pm    Post subject: Reply with quote

I guess im the opposite then dude, i like going up and down for dramatic effect lol. If there is such a thing when playing stuff like that.
Back to top
View user's profile Send private message Visit poster's website MSN Messenger
tarbaby
Finelines


Joined: 12 Nov 2005
Posts: 6

PostPosted: Tue Dec 13, 2005 4:46 am    Post subject: Reply with quote

This is what I got out of "Taprobane/Losing Touch". It's only the Rhythm Guitar though and I didn't bother showing the strumming patterns. For the Losing Touch intro I just drone on the 13th (Actually 12th with the Capo) fret Harmonics and add random wild slides towards the end. All chords relative to Capo and make sure you copy and paste to notepad.





Standard Capo on 1st fret
Low to High (F A# D# G# C F)

(Taprobane)

Guitar 1
e|---------------------------|-------------------------|----------------------|--------|
B|----1-------3---3--1---1---|-------------------------|----1-----------------|--------|
G|----2-------2---2--2---2---|-------------------------|----2-----------------|--------|
D|------2-------2------2---2-|--3---5---3--2/3-3--5----|------2----0--0--0--0-|--------|
A|-0-------------------------|--5---5---5--4/5-5--7----|-0---------2--2--2--3-|--0-----|
E|---------------------------|-------------------------|----------------------|--0-----|





(Losing Touch)

(Intro)
e|----12*-----|
B|----12*-----|
G|----12*-----|
D|----12*-----|
A|----12*-----|
E|----12*-----|

(Pre-Verse)
e|-0---0---0---0---0-----------||-0--|
B|-1---1---1---1---3-----0-1-0-||-1--|
G|-2---2---2---2---0-----2-2-2-||-2--| (You can also slide a minor barre chord (minus the 2 E strings)
D|-2---3---2---3---2-----2-2-2-||-3--| up to the fith fret or use the whammy pedal
A|-0---3---0---3---3-----0-0-0-||-3--| to get that pitch shifting sound)
E|-----------------------------||----|

(Verse)
e|----------| |---------| {|-------------------|}
B|--0---/0--| |--3------| {|--0----0--0--------|} (Play after first time only)
G|--2---/6--| |--4---4--| {|--2----7--6--------|}
D|--2---/4--| |--4---4--| {|--2----x--x--------|}
A|--0---/5--| |--2---X--| {|--0----5--5--------|}
E|----------| |------3--| {|-------------------|}

(Chorus)
e|-------------|-------------|
B|-------------|-5-----------|
G|------7------|-7^(1)-------|
D|--4---7--7---|-------------|
A|--4---5--7---|-------------|
E|--2------5---|-------------|

(Interlude)
e|----------| |---5---5----7---7-| |-7-----7--7/10-|
B|----------| |--5---5----5---5--| |-5-----5--5/8--|
G|--7---7---| |-5---5--5h7---7---| |-7-----7--7/9--|
D|--7---7---| |------------------| |---------------|
A|--X---X---| |------------------| |---------------|
E|--7---6---| |------------------| |---------------|

(Outro)
e|-----------0--------|
B|-(0)---0---1--------|
G|--5----2---2--------|
D|--5----2---3--------|
A|--3----0---3--------|
E|--------------------|

Intro
Pre-Verse x2
Verse x2
Chorus x4
Verse x2
Chorus x3 1/2
Interlude
Intro
Pre-Verse x2
Outro x4


Last edited by tarbaby on Wed Dec 14, 2005 7:49 am; edited 1 time in total
Back to top
View user's profile Send private message
Display posts from previous:    View previous topic : View next topic  
Post new topic   Reply to topic    myvitriol.net Forum Index -> Kit and Tab All times are GMT + 1 Hour
Goto page Previous  1, 2, 3, 4  Next
Page 2 of 4
Jump to:  
You cannot post new topics in this forum
You cannot reply to topics in this forum
You cannot edit your posts in this forum
You cannot delete your posts in this forum
You cannot vote in polls in this forum
You cannot attach files in this forum
You can download files in this forum